Grupo : Armonia 10
Tema : Amor De Estudiante

Regresar

Amor De Estudiante (Armonia 10)


      D                            A
 Ese amor, amor, amor, amor de estudiante...
      Em                          F#7
 Ese amor, amor, amor que no es como antes...
 
 INTRO:
 
 1.-
    D             A                          Em           F#7
 e|----2------2------0-----------0-0-0-3-0--0-0-3-0--2-2-0--------|
 b|-3-3-3--3-3-3--2-2-2-----0-2-3--------------------------3------|
 G|------------------------2--------------------------------------|
 D|---------------------------------------------------------------|
 A|---------------------------------------------------------------|
 E|---------------------------------------------------------------|
 
 2.-
       D                    A             Em                       F#7
 e|----2-0--2-0-2---2-2-0---2-0-----0-2---3-2-0-3-2-0-3----3-3-2-0-3-2-0-2-|
 b|-3-----3----3---------3------3-2----------------------------------------|
 G|2-----------------------------------------------------------------------|
 D|------------------------------------------------------------------------|
 A|------------------------------------------------------------------------|
 E|------------------------------------------------------------------------|
 (BIS 2.-)
 
 3.-
      Bm       A       Bm       A        Em
 e|-2----------0------2---------0-----------7-7--19-19-------------|
 b|--3-3-2-0----2-0----3-2-2-0---2-0----0-0------------------------|
 G|----------------2----------------2------------------------------|
 D|----------------------------------------------------------------|
 A|----------------------------------------------------------------|
 E|----------------------------------------------------------------|
 A|----------------------------------------------------------------|
 E|----------------------------------------------------------------|
 
        Bm
 Ese tierno e inmenso amor
       Fm#
 que vivimos tu y yo...
  Em                     F#7
 Asi fue nuestro amor, amor de estudiante...
 
          Bm
 Me acerqué hasta un jardín
        Fm#
 luego deshojé una flor...
  Em                     F#7
 y voy a repetir el recuerdo de antes...
 
   Bm             A
 Sólo, ahora me queda
   Em                 F#7
 recordar aquel amor que vivimos tu y yo...
 
      D                 A
 Ese amor, amor, amor, amor de estudiante...
        Em           F#7
 Ese amor, amor, amor que no es como antes...
      D                 A
 Ese amor, amor, amor, amor de estudiante...
        Em           F#7
 Ese amor, amor, amor que no es como antes...
 
 Rep. Todo




ENVIANOS TUS ACORDES MUSICALES

Nombre :

Email :

Acordes :


NOTA :
Las letras y acordes msicales de tu tema favorito deben estar en formato (.txt). Estos a su vez seran evaluados para despues ser publicado.

Copyright © 2008 - 2018 Cumbiando.com
Todos Los Derechos Reservados.