Grupo : Dilbert Aguilar
Tema : Agonia De Amor
Tema : No Me Olvidaras

Regresar

Agonia De Amor (Dilbert Aguilar)


 Intro 1
 -------
 
 [Dm - Bb - F - C]
 e|-8h10-8h10-8h10------5-5-5s6---12h13-12h13-12h13-10------------|
 B|----------------------------------------------------13-11-10-8-|
 G|----------------7--7-------------------------------------------|
 D|---------------------------------------------------------------|
 A|---------------------------------------------------------------|
 E|---------------------------------------------------------------|
                                                             (2 veces)
 
 Intro 2
 -------
 
 [Dm - Bb - F - C] x2
 e|-5--------------------------5--------------------------5-5------
 B|---8-6-5-6------6---6---8-8----6-6-6-6-6-6-6-6-6-6-6-6-----8-6--
 G|-----------7--7---7---7-----------------------------------------
 D|----------------------------------------------------------------
 A|----------------------------------------------------------------
 E|----------------------------------------------------------------
 
 e|-5--------------------------5--------------------------5-5-----8-|
 B|---8-6-5-6------6---6---8-8----6-6-6-6-6-6-6-6-6-6-6-6-----8-6---|
 G|-----------7--7---7---7------------------------------------------|
 D|-----------------------------------------------------------------|
 A|-----------------------------------------------------------------|
 E|-----------------------------------------------------------------|
 
 Estrofas
 --------
 
 Dm                        Bb
 Yo sé que se acerca el final
        F                         C
 me llamaste para hablar y no puedes empezar.
       Dm                    Bb
 A los ojos no me quieres mirar
     F                          C
 hablar con la verdad quizá te pone mal.
    Dm          Bb       (Riff 1)
 Y yo no sé a qué he venido
      F                            C     (Riff 2)
 tal vez con la esperanza de que alargues más
 Dm               Bb    (Riff 1)
 esta agonía de nuestro amor
     F                    C   (Riff 2)
 hasta que se resigne mi corazón.
 
 
 Pre-Coro
 --------
 
 Dm      Bb        F  C
 A perderte, a perderte,
 Dm      Bb        F  C
 a perderte, a perderte.
 
 
 Coro
 ----
 
        Dm                 Bb
 Le llegó el final a esta relación
         F                C
 ya no me amas tú, aún te amo yo.
         Dm               Bb
 Ya me olvidarás, te escucho decir
        F                    C
 no voy a poder no es fácil para mi.
        Dm                 Bb
 Le llegó el final a esta relacion
         F                C
 ya no me amas tú, aún te amo yo.
         Dm               Bb
 Ya me olvidarás, te escucho decir
        F                    C
 no voy a poder no es fácil para mi.
             Dm
 no es fácil para mi.
 
 Repetir:
 *Intro 1
 *Intro 2
 *Estrofas
 *Pre-Coro
 *Coro
 
 
 Final:
 
 [Dm - Bb - F - C]
 e|---------------------------------------------------|
 B|---6-----6-----6------------6------6------8-8-8-8--|
 G|-----7-----7-----7-7-7----5---5--5---5--5----------|
 D|-7-----7-----7-------------------------------------|
 A|---------------------------------------------------|
 E|---------------------------------------------------| (4 veces)
 
 [Dm]
 e|-5--5--5--5--5--5----10--|
 B|-6--6--6--6--6--6----10--|
 G|-7--7--7--7--7--7----10--|
 D|-7--7--7--7--7--7--------|
 A|-------------------------|
 E|-------------------------|
 
 
 Riffs
 -----
 
 
 Riff 1
 e|-8s10s8s10-8--------|
 B|-------------8-8h10-|
 G|--------------------|
 D|--------------------|
 A|--------------------|
 E|--------------------|
 
 Riff 2
 e|-5s6-5----------|
 B|-------8-6-8s10-|
 G|----------------|
 D|----------------|
 A|----------------|
 E|----------------|
 
 
 
 
                    --------
                 º-| ¤    ¤ |-º
                 º-|  LuïS  |-º
                 º-| ¤    ¤ |-º
                           /
                     |    |
         ·===========================·
         | luis_6cuerdas@hotmail.com |
         ·===========================·




ENVIANOS TUS ACORDES MUSICALES

Nombre :

Email :

Acordes :


NOTA :
Las letras y acordes músicales de tu tema favorito deben estar en formato (.txt). Estos a su vez seran evaluados para despues ser publicado.

Copyright © 2008 - 2018 Cumbiando.com
Todos Los Derechos Reservados.