Grupo : Grupo Nectar
Tema : Arbolito
Tema : De Mi Te Vas A Enamorar
Tema : Tu Vives Equivocada
Tema : Chiquita De Mi Corazon

Regresar

Tu Vives Equivocada (Grupo Nectar)


 <font size=3>....Descansen en paz Jhonny Orosco y el Grupo Nectar!....
 <marquee behavior=alternate>¡Por siempre y para siempre
 NECTAR!!</marquee>
 </font>
 
 Intro:
 ------
 
    MI          FA#m    MI         FA#m FA#m FA#m
 e|-------------5-------------------5----5----5-
 b|---5-5---5---7---------5-5---5---7----7----7-
 G|-4-----4---4-6-------4-----4---4-6----6----6-
 D|---------------------------------------------
 A|---------------------------------------------
 E|---------------------------------------------
 
    MI         FA#m    MI         FA#m
 e|-------------5-----------------5-4------------
 b|---5-5---5---7-------5-5---5-------7----------    Y Nuevamente
 G|-4-----4---4-6-----4-----4---4----------------      el grupo
 D|----------------------------------------------  Nectar para ti!!!
 A|----------------------------------------------
 E|----------------------------------------------
 
    MI         FA#m    MI         FA#m
 e|-------------5-----------------5-4------------
 b|---5-5---5---7-------5-5---5-------7----------
 G|-4-----4---4-6-----4-----4---4----------------
 D|----------------------------------------------
 A|----------------------------------------------
 E|----------------------------------------------
 
     FA#m            FA#m           FA#m
 e|-5-4------------------------------------------
 b|-----7-----------7----------------------------
 G|-------6-----------6-4----------6-------------
 D|-----------------------7----------7-6-4-------
 A|----------------------------------------------
 E|----------------------------------------------
 
 
 Fm#                   A
 Yo que todo te lo di sin medida
 E                             Fm#
 Yo que loco por tu amor deje a mi familia
 Bm
 Hoy tu sabes que jamás tu me has querido
 A
 Que imposible para mi hecharte al olvido.
 
   E                Fm#
 Mujer que porque te quiero
 E                   Fm#
 Debo quedarme en tu vida
 E                   Fm#
 No pienses de esa manera
 E                   Fm#
 Pues vives equivocada.
 
         A         D           E      Fm#
 e|---------------------------0-0-0--2-----------
 b|-----2-2-2----2-3-3-3--2-3----------2-0-0-----
 G|-2-4--------4-----------------------------2---
 D|----------------------------------------------
 A|----------------------------------------------
 E|----------------------------------------------
 
 A
 Seguiré luchando para
   D
 Demostrarte
                Fm#
 Que no estoy derrotado
        E           Fm#
 Aunque tu no estés seguiré luchando
       E            Fm#
 Seguiré luchando aunque tu no estés.
 
          A
 Como me ha dolido
       D               Fm#
 Cuando me dijiste él hecharme al olvido
       E                Fm#
 Hecharme al olvido como me ha dolido
          E                 Fm#
 Como me ha dolido él hecharme al olvido
 
 
    MI          FA#m    MI         FA#m FA#m FA#m
 e|-------------5-------------------5----5----5-
 b|---5-5---5---7---------5-5---5---7----7----7-
 G|-4-----4---4-6-------4-----4---4-6----6----6-
 D|---------------------------------------------
 A|---------------------------------------------
 E|---------------------------------------------
 
    MI         FA#m    MI         FA#m
 e|-------------5-----------------5-4------------
 b|---5-5---5---7-------5-5---5-------7----------    EPA
 G|-4-----4---4-6-----4-----4---4----------------    EPA
 D|----------------------------------------------    EPA
 A|----------------------------------------------
 E|----------------------------------------------
 
    MI         FA#m    MI         FA#m
 e|-------------5-----------------5-4------------
 b|---5-5---5---7-------5-5---5-------7----------
 G|-4-----4---4-6-----4-----4---4----------------  David Orosco
 D|----------------------------------------------
 A|----------------------------------------------
 E|----------------------------------------------
 
     FA#m            FA#m           FA#m
 e|-5-4------------------------------------------
 b|-----7-----------7----------------------------
 G|-------6-----------6-4----------6-------------
 D|-----------------------7----------7-6-4-------
 A|----------------------------------------------
 E|----------------------------------------------
 
 Fm#                   A
 Yo que todo te lo di sin medida
 E                             Fm#
 Yo que loco por tu amor deje a mi familia
 Bm
 Hoy tu sabes que jamás tu me has querido
 A
 Que imposible para mi hecharte al olvido.
 
   E                Fm#
 Mujer que porque te quiero
 E                   Fm#
 Debo quedarme en tu vida
 E                   Fm#
 No pienses de esa manera
 E                   Fm#
 Pues vives equivocada.
 
         A         D           E      Fm#
 e|---------------------------0-0-0--2-----------
 b|-----2-2-2----2-3-3-3--2-3----------2-0-0-----
 G|-2-4--------4-----------------------------2---
 D|----------------------------------------------
 A|----------------------------------------------
 E|----------------------------------------------
 
 A
 Seguiré luchando para
   D
 Demostrarte
             Fm#
 Que no estoy derrotado
         E               Fm#
 Aunque tu no estés seguiré luchando
       E          Fm#
 Seguiré luchando aunque tu no estés.
 
        A
 Como me ha dolido
             D             Fm#
 Cuando me dijiste él hecharme al olvido
        E                Fm#
 Hecharme al olvido como me ha dolido
        E                 Fm#
 Como me ha dolido él hecharme al olvido
 
         A         D           E      Fm#
 e|---------------------------0-0-0--2-----------
 b|-----2-2-2----2-3-3-3--2-3----------2-0-0-----
 G|-2-4--------4-----------------------------2---
 D|----------------------------------------------
 A|----------------------------------------------
 E|----------------------------------------------
 
         A         D           E      Fm#
 e|---------------------------0-0-0--2-----------
 b|-----2-2-2----2-3-3-3--2-3----------2-0-0-----
 G|-2-4--------4-----------------------------2---
 D|----------------------------------------------
 A|----------------------------------------------
 E|----------------------------------------------
 
 Que Dios los tenga en su gloria............Grupo Nectar




ENVIANOS TUS ACORDES MUSICALES

Nombre :

Email :

Acordes :


NOTA :
Las letras y acordes msicales de tu tema favorito deben estar en formato (.txt). Estos a su vez seran evaluados para despues ser publicado.

Copyright © 2008 - 2018 Cumbiando.com
Todos Los Derechos Reservados.